  0
SECTION
  2
HEADER
  9
$ACADVER
  1
AC1009
  9
$INSBASE
 10
0.0
 20
0.0
 30
0.0
  9
$EXTMIN
 10
37.772724
 20
20.0
 30
0.0
  9
$EXTMAX
 10
1092.932106
 20
87.425264
 30
0.0
  9
$LIMMIN
 10
0.0
 20
0.0
  9
$LIMMAX
 10
1189.0
 20
841.0
  9
$ORTHOMODE
 70
     0
  9
$REGENMODE
 70
     1
  9
$FILLMODE
 70
     1
  9
$QTEXTMODE
 70
     0
  9
$MIRRTEXT
 70
     1
  9
$DRAGMODE
 70
     2
  9
$LTSCALE
 40
1.0
  9
$OSMODE
 70
     0
  9
$ATTMODE
 70
     1
  9
$TEXTSIZE
 40
0.2
  9
$TRACEWID
 40
0.05
  9
$TEXTSTYLE
  7
STANDARD
  9
$CLAYER
  8
0
  9
$CELTYPE
  6
CONTINUOUS
  9
$CECOLOR
 62
   256
  9
$DIMSCALE
 40
1.0
  9
$DIMASZ
 40
0.18
  9
$DIMEXO
 40
0.0625
  9
$DIMDLI
 40
0.38
  9
$DIMRND
 40
0.0
  9
$DIMDLE
 40
0.0
  9
$DIMEXE
 40
0.18
  9
$DIMTP
 40
0.0
  9
$DIMTM
 40
0.0
  9
$DIMTXT
 40
0.18
  9
$DIMCEN
 40
0.09
  9
$DIMTSZ
 40
0.0
  9
$DIMTOL
 70
     0
  9
$DIMLIM
 70
     0
  9
$DIMTIH
 70
     1
  9
$DIMTOH
 70
     1
  9
$DIMSE1
 70
     0
  9
$DIMSE2
 70
     0
  9
$DIMTAD
 70
     0
  9
$DIMZIN
 70
     0
  9
$DIMBLK
  1

  9
$DIMASO
 70
     1
  9
$DIMSHO
 70
     1
  9
$DIMPOST
  1

  9
$DIMAPOST
  1

  9
$DIMALT
 70
     0
  9
$DIMALTD
 70
     2
  9
$DIMALTF
 40
25.4
  9
$DIMLFAC
 40
1.0
  9
$DIMTOFL
 70
     0
  9
$DIMTVP
 40
0.0
  9
$DIMTIX
 70
     0
  9
$DIMSOXD
 70
     0
  9
$DIMSAH
 70
     0
  9
$DIMBLK1
  1

  9
$DIMBLK2
  1

  9
$DIMSTYLE
  2
STANDARD
  9
$DIMCLRD
 70
     0
  9
$DIMCLRE
 70
     0
  9
$DIMCLRT
 70
     0
  9
$DIMTFAC
 40
1.0
  9
$DIMGAP
 40
0.09
  9
$LUNITS
 70
     2
  9
$LUPREC
 70
     4
  9
$SKETCHINC
 40
0.1
  9
$FILLETRAD
 40
0.0
  9
$AUNITS
 70
     0
  9
$AUPREC
 70
     0
  9
$MENU
  1
acad
  9
$ELEVATION
 40
0.0
  9
$PELEVATION
 40
0.0
  9
$THICKNESS
 40
0.0
  9
$LIMCHECK
 70
     0
  9
$BLIPMODE
 70
     0
  9
$CHAMFERA
 40
0.0
  9
$CHAMFERB
 40
0.0
  9
$SKPOLY
 70
     0
  9
$TDCREATE
 40
2451440.708715
  9
$TDUPDATE
 40
2451442.662675
  9
$TDINDWG
 40
0.007139
  9
$TDUSRTIMER
 40
0.007139
  9
$USRTIMER
 70
     1
  9
$ANGBASE
 50
0.0
  9
$ANGDIR
 70
     0
  9
$PDMODE
 70
     0
  9
$PDSIZE
 40
0.0
  9
$PLINEWID
 40
0.0
  9
$COORDS
 70
     1
  9
$SPLFRAME
 70
     0
  9
$SPLINETYPE
 70
     6
  9
$SPLINESEGS
 70
     8
  9
$ATTDIA
 70
     0
  9
$ATTREQ
 70
     1
  9
$HANDLING
 70
     1
  9
$HANDSEED
  5
1FC
  9
$SURFTAB1
 70
     6
  9
$SURFTAB2
 70
     6
  9
$SURFTYPE
 70
     6
  9
$SURFU
 70
     6
  9
$SURFV
 70
     6
  9
$UCSNAME
  2

  9
$UCSORG
 10
0.0
 20
0.0
 30
0.0
  9
$UCSXDIR
 10
1.0
 20
0.0
 30
0.0
  9
$UCSYDIR
 10
0.0
 20
1.0
 30
0.0
  9
$PUCSNAME
  2

  9
$PUCSORG
 10
0.0
 20
0.0
 30
0.0
  9
$PUCSXDIR
 10
1.0
 20
0.0
 30
0.0
  9
$PUCSYDIR
 10
0.0
 20
1.0
 30
0.0
  9
$USERI1
 70
     0
  9
$USERI2
 70
     0
  9
$USERI3
 70
     0
  9
$USERI4
 70
     0
  9
$USERI5
 70
     0
  9
$USERR1
 40
0.0
  9
$USERR2
 40
0.0
  9
$USERR3
 40
0.0
  9
$USERR4
 40
0.0
  9
$USERR5
 40
0.0
  9
$WORLDVIEW
 70
     1
  9
$SHADEDGE
 70
     3
  9
$SHADEDIF
 70
    70
  9
$TILEMODE
 70
     1
  9
$MAXACTVP
 70
    48
  9
$PLIMCHECK
 70
     0
  9
$PEXTMIN
 10
1.000000E+020
 20
1.000000E+020
 30
1.000000E+020
  9
$PEXTMAX
 10
-1.000000E+020
 20
-1.000000E+020
 30
-1.000000E+020
  9
$PLIMMIN
 10
0.0
 20
0.0
  9
$PLIMMAX
 10
12.0
 20
9.0
  9
$UNITMODE
 70
     0
  9
$VISRETAIN
 70
     1
  9
$PLINEGEN
 70
     0
  9
$PSLTSCALE
 70
     1
  0
ENDSEC
  0
SECTION
  2
TABLES
  0
TABLE
  2
VPORT
 70
     2
  0
VPORT
  2
*ACTIVE
 70
     0
 10
0.0
 20
0.0
 11
1.0
 21
1.0
 12
771.4751
 22
420.5
 13
0.0
 23
0.0
 14
1.0
 24
1.0
 15
0.0
 25
0.0
 16
0.0
 26
0.0
 36
1.0
 17
0.0
 27
0.0
 37
0.0
 40
841.0
 41
1.834661
 42
50.0
 43
0.0
 44
0.0
 50
0.0
 51
0.0
 71
     0
 72
   100
 73
     1
 74
     1
 75
     0
 76
     0
 77
     0
 78
     0
  0
ENDTAB
  0
TABLE
  2
LTYPE
 70
     2
  0
LTYPE
  2
CONTINUOUS
 70
     0
  3
______________
 72
    65
 73
     0
 40
0.0
  0
LTYPE
  2
CENTER
 70
     0
  3
Center ____ _ ____ _ ____ _ ____ _ ____ _ ____
 72
    65
 73
     4
 40
2.0
 49
1.25
 49
-0.25
 49
0.25
 49
-0.25
  0
ENDTAB
  0
TABLE
  2
LAYER
 70
     2
  0
LAYER
  2
0
 70
     0
 62
     7
  6
CONTINUOUS
  0
LAYER
  2
1
 70
     0
 62
     7
  6
CONTINUOUS
  0
ENDTAB
  0
TABLE
  2
STYLE
 70
     2
  0
STYLE
  2
STANDARD
 70
     0
 40
0.0
 41
1.0
 50
0.0
 71
     0
 42
3.2
  3
TXT
  4
EXTFONT
  0
STYLE
  2

 70
     1
 40
0.0
 41
1.0
 50
0.0
 71
     0
 42
0.2
  3
ltypeshp.shx
  4

  0
ENDTAB
  0
TABLE
  2
VIEW
 70
     0
  0
ENDTAB
  0
TABLE
  2
UCS
 70
     0
  0
ENDTAB
  0
TABLE
  2
APPID
 70
     1
  0
APPID
  2
ACAD
 70
     0
  0
ENDTAB
  0
TABLE
  2
DIMSTYLE
 70
     1
  0
DIMSTYLE
  2
STANDARD
 70
     0
  3

  4

  5

  6

  7

 40
1.0
 41
0.18
 42
0.0625
 43
0.38
 44
0.18
 45
0.0
 46
0.0
 47
0.0
 48
0.0
140
0.18
141
0.09
142
0.0
143
25.4
144
1.0
145
0.0
146
1.0
147
0.09
 71
     0
 72
     0
 73
     1
 74
     1
 75
     0
 76
     0
 77
     0
 78
     0
170
     0
171
     2
172
     0
173
     0
174
     0
175
     0
176
     0
177
     0
178
     0
  0
ENDTAB
  0
ENDSEC
  0
SECTION
  2
BLOCKS
  0
BLOCK
  8
0
  2
$MODEL_SPACE
 70
     0
 10
0.0
 20
0.0
 30
0.0
  3
$MODEL_SPACE
  1

  0
ENDBLK
  5
1F4
  8
0
  0
BLOCK
 67
     1
  8
0
  2
$PAPER_SPACE
 70
     0
 10
0.0
 20
0.0
 30
0.0
  3
$PAPER_SPACE
  1

  0
ENDBLK
  5
1F2
 67
     1
  8
0
  0
ENDSEC
  0
SECTION
  2
ENTITIES
  0
LINE
  5
24
  8
1
  6
CONTINUOUS
 62
     7
 10
543.404088
 20
64.098231
 30
0.0
 11
543.404088
 21
71.598231
 31
0.0
  0
LINE
  5
25
  8
1
  6
CONTINUOUS
 62
     7
 10
543.804088
 20
72.098231
 30
0.0
 11
543.804088
 21
64.598231
 31
0.0
  0
LINE
  5
26
  8
1
  6
CONTINUOUS
 62
     7
 10
523.004088
 20
72.098231
 30
0.0
 11
543.804088
 21
72.098231
 31
0.0
  0
LINE
  5
27
  8
1
  6
CONTINUOUS
 62
     7
 10
523.004088
 20
64.598231
 30
0.0
 11
523.004088
 21
72.098231
 31
0.0
  0
LINE
  5
28
  8
1
  6
CONTINUOUS
 62
     7
 10
563.804088
 20
71.598231
 30
0.0
 11
543.804088
 21
71.598231
 31
0.0
  0
LINE
  5
29
  8
1
  6
CONTINUOUS
 62
     7
 10
543.404088
 20
64.098231
 30
0.0
 11
564.204088
 21
64.098231
 31
0.0
  0
LINE
  5
2A
  8
1
  6
CONTINUOUS
 62
     7
 10
53.804088
 20
69.848231
 30
0.0
 11
54.204088
 21
69.848231
 31
0.0
  0
LINE
  5
2B
  8
1
  6
CONTINUOUS
 62
     7
 10
1043.604088
 20
84.098231
 30
0.0
 11
43.604088
 21
84.098231
 31
0.0
  0
LINE
  5
2C
  8
1
  6
CONTINUOUS
 62
     7
 10
563.804088
 20
64.598231
 30
0.0
 11
543.804088
 21
64.598231
 31
0.0
  0
LINE
  5
2D
  8
1
  6
CONTINUOUS
 62
     7
 10
43.604088
 20
52.098231
 30
0.0
 11
1043.604088
 21
52.098231
 31
0.0
  0
LINE
  5
2E
  8
1
  6
CENTER
 62
     2
 10
543.604088
 20
87.425264
 30
0.0
 11
543.604088
 21
49.10364
 31
0.0
  0
LINE
  5
2F
  8
1
  6
CONTINUOUS
 62
     7
 10
543.404088
 20
71.598231
 30
0.0
 11
523.404088
 21
71.598231
 31
0.0
  0
LINE
  5
30
  8
1
  6
CONTINUOUS
 62
     7
 10
523.404088
 20
64.098231
 30
0.0
 11
523.404088
 21
71.598231
 31
0.0
  0
LINE
  5
31
  8
1
  6
CONTINUOUS
 62
     7
 10
523.404088
 20
64.598231
 30
0.0
 11
543.404088
 21
64.598231
 31
0.0
  0
LINE
  5
32
  8
1
  6
CONTINUOUS
 62
     7
 10
523.004088
 20
69.848231
 30
0.0
 11
523.404088
 21
69.848231
 31
0.0
  0
LINE
  5
33
  8
1
  6
CONTINUOUS
 62
     7
 10
523.004088
 20
66.348231
 30
0.0
 11
523.404088
 21
66.348231
 31
0.0
  0
LINE
  5
34
  8
1
  6
CONTINUOUS
 62
     7
 10
543.404088
 20
69.848231
 30
0.0
 11
543.804088
 21
69.848231
 31
0.0
  0
LINE
  5
35
  8
1
  6
CONTINUOUS
 62
     7
 10
543.404088
 20
66.348231
 30
0.0
 11
543.804088
 21
66.348231
 31
0.0
  0
LINE
  5
36
  8
1
  6
CONTINUOUS
 62
     7
 10
584.204088
 20
66.348231
 30
0.0
 11
584.604088
 21
66.348231
 31
0.0
  0
LINE
  5
37
  8
1
  6
CONTINUOUS
 62
     7
 10
584.204088
 20
69.848231
 30
0.0
 11
584.604088
 21
69.848231
 31
0.0
  0
LINE
  5
38
  8
1
  6
CONTINUOUS
 62
     7
 10
563.804088
 20
66.348231
 30
0.0
 11
564.204088
 21
66.348231
 31
0.0
  0
LINE
  5
39
  8
1
  6
CONTINUOUS
 62
     7
 10
563.804088
 20
69.848231
 30
0.0
 11
564.204088
 21
69.848231
 31
0.0
  0
LINE
  5
3A
  8
1
  6
CONTINUOUS
 62
     7
 10
564.204088
 20
64.598231
 30
0.0
 11
584.204088
 21
64.598231
 31
0.0
  0
LINE
  5
3B
  8
1
  6
CONTINUOUS
 62
     7
 10
564.204088
 20
64.098231
 30
0.0
 11
564.204088
 21
71.598231
 31
0.0
  0
LINE
  5
3C
  8
1
  6
CONTINUOUS
 62
     7
 10
584.204088
 20
71.598231
 30
0.0
 11
564.204088
 21
71.598231
 31
0.0
  0
LINE
  5
3D
  8
1
  6
CONTINUOUS
 62
     7
 10
604.604088
 20
64.598231
 30
0.0
 11
584.604088
 21
64.598231
 31
0.0
  0
LINE
  5
3E
  8
1
  6
CONTINUOUS
 62
     7
 10
584.204088
 20
64.098231
 30
0.0
 11
605.004088
 21
64.098231
 31
0.0
  0
LINE
  5
3F
  8
1
  6
CONTINUOUS
 62
     7
 10
604.604088
 20
71.598231
 30
0.0
 11
584.604088
 21
71.598231
 31
0.0
  0
LINE
  5
40
  8
1
  6
CONTINUOUS
 62
     7
 10
563.804088
 20
64.598231
 30
0.0
 11
563.804088
 21
72.098231
 31
0.0
  0
LINE
  5
41
  8
1
  6
CONTINUOUS
 62
     7
 10
563.804088
 20
72.098231
 30
0.0
 11
584.604088
 21
72.098231
 31
0.0
  0
LINE
  5
42
  8
1
  6
CONTINUOUS
 62
     7
 10
584.604088
 20
72.098231
 30
0.0
 11
584.604088
 21
64.598231
 31
0.0
  0
LINE
  5
43
  8
1
  6
CONTINUOUS
 62
     7
 10
584.204088
 20
64.098231
 30
0.0
 11
584.204088
 21
71.598231
 31
0.0
  0
LINE
  5
44
  8
1
  6
CONTINUOUS
 62
     7
 10
625.004088
 20
66.348231
 30
0.0
 11
625.404088
 21
66.348231
 31
0.0
  0
LINE
  5
45
  8
1
  6
CONTINUOUS
 62
     7
 10
625.004088
 20
69.848231
 30
0.0
 11
625.404088
 21
69.848231
 31
0.0
  0
LINE
  5
46
  8
1
  6
CONTINUOUS
 62
     7
 10
604.604088
 20
66.348231
 30
0.0
 11
605.004088
 21
66.348231
 31
0.0
  0
LINE
  5
47
  8
1
  6
CONTINUOUS
 62
     7
 10
604.604088
 20
69.848231
 30
0.0
 11
605.004088
 21
69.848231
 31
0.0
  0
LINE
  5
48
  8
1
  6
CONTINUOUS
 62
     7
 10
605.004088
 20
64.598231
 30
0.0
 11
625.004088
 21
64.598231
 31
0.0
  0
LINE
  5
49
  8
1
  6
CONTINUOUS
 62
     7
 10
605.004088
 20
64.098231
 30
0.0
 11
605.004088
 21
71.598231
 31
0.0
  0
LINE
  5
4A
  8
1
  6
CONTINUOUS
 62
     7
 10
625.004088
 20
71.598231
 30
0.0
 11
605.004088
 21
71.598231
 31
0.0
  0
LINE
  5
4B
  8
1
  6
CONTINUOUS
 62
     7
 10
645.404088
 20
64.598231
 30
0.0
 11
625.404088
 21
64.598231
 31
0.0
  0
LINE
  5
4C
  8
1
  6
CONTINUOUS
 62
     7
 10
625.004088
 20
64.098231
 30
0.0
 11
645.804088
 21
64.098231
 31
0.0
  0
LINE
  5
4D
  8
1
  6
CONTINUOUS
 62
     7
 10
645.404088
 20
71.598231
 30
0.0
 11
625.404088
 21
71.598231
 31
0.0
  0
LINE
  5
4E
  8
1
  6
CONTINUOUS
 62
     7
 10
604.604088
 20
64.598231
 30
0.0
 11
604.604088
 21
72.098231
 31
0.0
  0
LINE
  5
4F
  8
1
  6
CONTINUOUS
 62
     7
 10
604.604088
 20
72.098231
 30
0.0
 11
625.404088
 21
72.098231
 31
0.0
  0
LINE
  5
50
  8
1
  6
CONTINUOUS
 62
     7
 10
625.404088
 20
72.098231
 30
0.0
 11
625.404088
 21
64.598231
 31
0.0
  0
LINE
  5
51
  8
1
  6
CONTINUOUS
 62
     7
 10
625.004088
 20
64.098231
 30
0.0
 11
625.004088
 21
71.598231
 31
0.0
  0
LINE
  5
52
  8
1
  6
CONTINUOUS
 62
     7
 10
665.804088
 20
66.348231
 30
0.0
 11
666.204088
 21
66.348231
 31
0.0
  0
LINE
  5
53
  8
1
  6
CONTINUOUS
 62
     7
 10
665.804088
 20
69.848231
 30
0.0
 11
666.204088
 21
69.848231
 31
0.0
  0
LINE
  5
54
  8
1
  6
CONTINUOUS
 62
     7
 10
645.404088
 20
66.348231
 30
0.0
 11
645.804088
 21
66.348231
 31
0.0
  0
LINE
  5
55
  8
1
  6
CONTINUOUS
 62
     7
 10
645.404088
 20
69.848231
 30
0.0
 11
645.804088
 21
69.848231
 31
0.0
  0
LINE
  5
56
  8
1
  6
CONTINUOUS
 62
     7
 10
645.804088
 20
64.598231
 30
0.0
 11
665.804088
 21
64.598231
 31
0.0
  0
LINE
  5
57
  8
1
  6
CONTINUOUS
 62
     7
 10
645.804088
 20
64.098231
 30
0.0
 11
645.804088
 21
71.598231
 31
0.0
  0
LINE
  5
58
  8
1
  6
CONTINUOUS
 62
     7
 10
665.804088
 20
71.598231
 30
0.0
 11
645.804088
 21
71.598231
 31
0.0
  0
LINE
  5
59
  8
1
  6
CONTINUOUS
 62
     7
 10
686.204088
 20
64.598231
 30
0.0
 11
666.204088
 21
64.598231
 31
0.0
  0
LINE
  5
5A
  8
1
  6
CONTINUOUS
 62
     7
 10
665.804088
 20
64.098231
 30
0.0
 11
686.604088
 21
64.098231
 31
0.0
  0
LINE
  5
5B
  8
1
  6
CONTINUOUS
 62
     7
 10
686.204088
 20
71.598231
 30
0.0
 11
666.204088
 21
71.598231
 31
0.0
  0
LINE
  5
5C
  8
1
  6
CONTINUOUS
 62
     7
 10
645.404088
 20
64.598231
 30
0.0
 11
645.404088
 21
72.098231
 31
0.0
  0
LINE
  5
5D
  8
1
  6
CONTINUOUS
 62
     7
 10
645.404088
 20
72.098231
 30
0.0
 11
666.204088
 21
72.098231
 31
0.0
  0
LINE
  5
5E
  8
1
  6
CONTINUOUS
 62
     7
 10
666.204088
 20
72.098231
 30
0.0
 11
666.204088
 21
64.598231
 31
0.0
  0
LINE
  5
5F
  8
1
  6
CONTINUOUS
 62
     7
 10
665.804088
 20
64.098231
 30
0.0
 11
665.804088
 21
71.598231
 31
0.0
  0
LINE
  5
60
  8
1
  6
CONTINUOUS
 62
     7
 10
706.604088
 20
66.348231
 30
0.0
 11
707.004088
 21
66.348231
 31
0.0
  0
LINE
  5
61
  8
1
  6
CONTINUOUS
 62
     7
 10
706.604088
 20
69.848231
 30
0.0
 11
707.004088
 21
69.848231
 31
0.0
  0
LINE
  5
62
  8
1
  6
CONTINUOUS
 62
     7
 10
686.204088
 20
66.348231
 30
0.0
 11
686.604088
 21
66.348231
 31
0.0
  0
LINE
  5
63
  8
1
  6
CONTINUOUS
 62
     7
 10
686.204088
 20
69.848231
 30
0.0
 11
686.604088
 21
69.848231
 31
0.0
  0
LINE
  5
64
  8
1
  6
CONTINUOUS
 62
     7
 10
686.604088
 20
64.598231
 30
0.0
 11
706.604088
 21
64.598231
 31
0.0
  0
LINE
  5
65
  8
1
  6
CONTINUOUS
 62
     7
 10
686.604088
 20
64.098231
 30
0.0
 11
686.604088
 21
71.598231
 31
0.0
  0
LINE
  5
66
  8
1
  6
CONTINUOUS
 62
     7
 10
706.604088
 20
71.598231
 30
0.0
 11
686.604088
 21
71.598231
 31
0.0
  0
LINE
  5
67
  8
1
  6
CONTINUOUS
 62
     7
 10
727.004088
 20
64.598231
 30
0.0
 11
707.004088
 21
64.598231
 31
0.0
  0
LINE
  5
68
  8
1
  6
CONTINUOUS
 62
     7
 10
706.604088
 20
64.098231
 30
0.0
 11
727.404088
 21
64.098231
 31
0.0
  0
LINE
  5
69
  8
1
  6
CONTINUOUS
 62
     7
 10
727.004088
 20
71.598231
 30
0.0
 11
707.004088
 21
71.598231
 31
0.0
  0
LINE
  5
6A
  8
1
  6
CONTINUOUS
 62
     7
 10
686.204088
 20
64.598231
 30
0.0
 11
686.204088
 21
72.098231
 31
0.0
  0
LINE
  5
6B
  8
1
  6
CONTINUOUS
 62
     7
 10
686.204088
 20
72.098231
 30
0.0
 11
707.004088
 21
72.098231
 31
0.0
  0
LINE
  5
6C
  8
1
  6
CONTINUOUS
 62
     7
 10
707.004088
 20
72.098231
 30
0.0
 11
707.004088
 21
64.598231
 31
0.0
  0
LINE
  5
6D
  8
1
  6
CONTINUOUS
 62
     7
 10
706.604088
 20
64.098231
 30
0.0
 11
706.604088
 21
71.598231
 31
0.0
  0
LINE
  5
6E
  8
1
  6
CONTINUOUS
 62
     7
 10
747.404088
 20
66.348231
 30
0.0
 11
747.804088
 21
66.348231
 31
0.0
  0
LINE
  5
6F
  8
1
  6
CONTINUOUS
 62
     7
 10
747.404088
 20
69.848231
 30
0.0
 11
747.804088
 21
69.848231
 31
0.0
  0
LINE
  5
70
  8
1
  6
CONTINUOUS
 62
     7
 10
727.004088
 20
66.348231
 30
0.0
 11
727.404088
 21
66.348231
 31
0.0
  0
LINE
  5
71
  8
1
  6
CONTINUOUS
 62
     7
 10
727.004088
 20
69.848231
 30
0.0
 11
727.404088
 21
69.848231
 31
0.0
  0
LINE
  5
72
  8
1
  6
CONTINUOUS
 62
     7
 10
727.404088
 20
64.598231
 30
0.0
 11
747.404088
 21
64.598231
 31
0.0
  0
LINE
  5
73
  8
1
  6
CONTINUOUS
 62
     7
 10
727.404088
 20
64.098231
 30
0.0
 11
727.404088
 21
71.598231
 31
0.0
  0
LINE
  5
74
  8
1
  6
CONTINUOUS
 62
     7
 10
747.404088
 20
71.598231
 30
0.0
 11
727.404088
 21
71.598231
 31
0.0
  0
LINE
  5
75
  8
1
  6
CONTINUOUS
 62
     7
 10
767.804088
 20
64.598231
 30
0.0
 11
747.804088
 21
64.598231
 31
0.0
  0
LINE
  5
76
  8
1
  6
CONTINUOUS
 62
     7
 10
747.404088
 20
64.098231
 30
0.0
 11
768.204088
 21
64.098231
 31
0.0
  0
LINE
  5
77
  8
1
  6
CONTINUOUS
 62
     7
 10
767.804088
 20
71.598231
 30
0.0
 11
747.804088
 21
71.598231
 31
0.0
  0
LINE
  5
78
  8
1
  6
CONTINUOUS
 62
     7
 10
727.004088
 20
64.598231
 30
0.0
 11
727.004088
 21
72.098231
 31
0.0
  0
LINE
  5
79
  8
1
  6
CONTINUOUS
 62
     7
 10
727.004088
 20
72.098231
 30
0.0
 11
747.804088
 21
72.098231
 31
0.0
  0
LINE
  5
7A
  8
1
  6
CONTINUOUS
 62
     7
 10
747.804088
 20
72.098231
 30
0.0
 11
747.804088
 21
64.598231
 31
0.0
  0
LINE
  5
7B
  8
1
  6
CONTINUOUS
 62
     7
 10
747.404088
 20
64.098231
 30
0.0
 11
747.404088
 21
71.598231
 31
0.0
  0
LINE
  5
7C
  8
1
  6
CONTINUOUS
 62
     7
 10
788.204088
 20
66.348231
 30
0.0
 11
788.604088
 21
66.348231
 31
0.0
  0
LINE
  5
7D
  8
1
  6
CONTINUOUS
 62
     7
 10
788.204088
 20
69.848231
 30
0.0
 11
788.604088
 21
69.848231
 31
0.0
  0
LINE
  5
7E
  8
1
  6
CONTINUOUS
 62
     7
 10
767.804088
 20
66.348231
 30
0.0
 11
768.204088
 21
66.348231
 31
0.0
  0
LINE
  5
7F
  8
1
  6
CONTINUOUS
 62
     7
 10
767.804088
 20
69.848231
 30
0.0
 11
768.204088
 21
69.848231
 31
0.0
  0
LINE
  5
80
  8
1
  6
CONTINUOUS
 62
     7
 10
768.204088
 20
64.598231
 30
0.0
 11
788.204088
 21
64.598231
 31
0.0
  0
LINE
  5
81
  8
1
  6
CONTINUOUS
 62
     7
 10
768.204088
 20
64.098231
 30
0.0
 11
768.204088
 21
71.598231
 31
0.0
  0
LINE
  5
82
  8
1
  6
CONTINUOUS
 62
     7
 10
788.204088
 20
71.598231
 30
0.0
 11
768.204088
 21
71.598231
 31
0.0
  0
LINE
  5
83
  8
1
  6
CONTINUOUS
 62
     7
 10
808.604088
 20
64.598231
 30
0.0
 11
788.604088
 21
64.598231
 31
0.0
  0
LINE
  5
84
  8
1
  6
CONTINUOUS
 62
     7
 10
788.204088
 20
64.098231
 30
0.0
 11
809.004088
 21
64.098231
 31
0.0
  0
LINE
  5
85
  8
1
  6
CONTINUOUS
 62
     7
 10
808.604088
 20
71.598231
 30
0.0
 11
788.604088
 21
71.598231
 31
0.0
  0
LINE
  5
86
  8
1
  6
CONTINUOUS
 62
     7
 10
767.804088
 20
64.598231
 30
0.0
 11
767.804088
 21
72.098231
 31
0.0
  0
LINE
  5
87
  8
1
  6
CONTINUOUS
 62
     7
 10
767.804088
 20
72.098231
 30
0.0
 11
788.604088
 21
72.098231
 31
0.0
  0
LINE
  5
88
  8
1
  6
CONTINUOUS
 62
     7
 10
788.604088
 20
72.098231
 30
0.0
 11
788.604088
 21
64.598231
 31
0.0
  0
LINE
  5
89
  8
1
  6
CONTINUOUS
 62
     7
 10
788.204088
 20
64.098231
 30
0.0
 11
788.204088
 21
71.598231
 31
0.0
  0
LINE
  5
8A
  8
1
  6
CONTINUOUS
 62
     7
 10
829.004088
 20
66.348231
 30
0.0
 11
829.404088
 21
66.348231
 31
0.0
  0
LINE
  5
8B
  8
1
  6
CONTINUOUS
 62
     7
 10
829.004088
 20
69.848231
 30
0.0
 11
829.404088
 21
69.848231
 31
0.0
  0
LINE
  5
8C
  8
1
  6
CONTINUOUS
 62
     7
 10
808.604088
 20
66.348231
 30
0.0
 11
809.004088
 21
66.348231
 31
0.0
  0
LINE
  5
8D
  8
1
  6
CONTINUOUS
 62
     7
 10
808.604088
 20
69.848231
 30
0.0
 11
809.004088
 21
69.848231
 31
0.0
  0
LINE
  5
8E
  8
1
  6
CONTINUOUS
 62
     7
 10
809.004088
 20
64.598231
 30
0.0
 11
829.004088
 21
64.598231
 31
0.0
  0
LINE
  5
8F
  8
1
  6
CONTINUOUS
 62
     7
 10
809.004088
 20
64.098231
 30
0.0
 11
809.004088
 21
71.598231
 31
0.0
  0
LINE
  5
90
  8
1
  6
CONTINUOUS
 62
     7
 10
829.004088
 20
71.598231
 30
0.0
 11
809.004088
 21
71.598231
 31
0.0
  0
LINE
  5
91
  8
1
  6
CONTINUOUS
 62
     7
 10
849.404088
 20
64.598231
 30
0.0
 11
829.404088
 21
64.598231
 31
0.0
  0
LINE
  5
92
  8
1
  6
CONTINUOUS
 62
     7
 10
829.004088
 20
64.098231
 30
0.0
 11
849.804088
 21
64.098231
 31
0.0
  0
LINE
  5
93
  8
1
  6
CONTINUOUS
 62
     7
 10
849.404088
 20
71.598231
 30
0.0
 11
829.404088
 21
71.598231
 31
0.0
  0
LINE
  5
94
  8
1
  6
CONTINUOUS
 62
     7
 10
808.604088
 20
64.598231
 30
0.0
 11
808.604088
 21
72.098231
 31
0.0
  0
LINE
  5
95
  8
1
  6
CONTINUOUS
 62
     7
 10
808.604088
 20
72.098231
 30
0.0
 11
829.404088
 21
72.098231
 31
0.0
  0
LINE
  5
96
  8
1
  6
CONTINUOUS
 62
     7
 10
829.404088
 20
72.098231
 30
0.0
 11
829.404088
 21
64.598231
 31
0.0
  0
LINE
  5
97
  8
1
  6
CONTINUOUS
 62
     7
 10
829.004088
 20
64.098231
 30
0.0
 11
829.004088
 21
71.598231
 31
0.0
  0
LINE
  5
98
  8
1
  6
CONTINUOUS
 62
     7
 10
869.804088
 20
66.348231
 30
0.0
 11
870.204088
 21
66.348231
 31
0.0
  0
LINE
  5
99
  8
1
  6
CONTINUOUS
 62
     7
 10
869.804088
 20
69.848231
 30
0.0
 11
870.204088
 21
69.848231
 31
0.0
  0
LINE
  5
9A
  8
1
  6
CONTINUOUS
 62
     7
 10
849.404088
 20
66.348231
 30
0.0
 11
849.804088
 21
66.348231
 31
0.0
  0
LINE
  5
9B
  8
1
  6
CONTINUOUS
 62
     7
 10
849.404088
 20
69.848231
 30
0.0
 11
849.804088
 21
69.848231
 31
0.0
  0
LINE
  5
9C
  8
1
  6
CONTINUOUS
 62
     7
 10
849.804088
 20
64.598231
 30
0.0
 11
869.804088
 21
64.598231
 31
0.0
  0
LINE
  5
9D
  8
1
  6
CONTINUOUS
 62
     7
 10
849.804088
 20
64.098231
 30
0.0
 11
849.804088
 21
71.598231
 31
0.0
  0
LINE
  5
9E
  8
1
  6
CONTINUOUS
 62
     7
 10
869.804088
 20
71.598231
 30
0.0
 11
849.804088
 21
71.598231
 31
0.0
  0
LINE
  5
9F
  8
1
  6
CONTINUOUS
 62
     7
 10
890.204088
 20
64.598231
 30
0.0
 11
870.204088
 21
64.598231
 31
0.0
  0
LINE
  5
A0
  8
1
  6
CONTINUOUS
 62
     7
 10
869.804088
 20
64.098231
 30
0.0
 11
890.604088
 21
64.098231
 31
0.0
  0
LINE
  5
A1
  8
1
  6
CONTINUOUS
 62
     7
 10
890.204088
 20
71.598231
 30
0.0
 11
870.204088
 21
71.598231
 31
0.0
  0
LINE
  5
A2
  8
1
  6
CONTINUOUS
 62
     7
 10
849.404088
 20
64.598231
 30
0.0
 11
849.404088
 21
72.098231
 31
0.0
  0
LINE
  5
A3
  8
1
  6
CONTINUOUS
 62
     7
 10
849.404088
 20
72.098231
 30
0.0
 11
870.204088
 21
72.098231
 31
0.0
  0
LINE
  5
A4
  8
1
  6
CONTINUOUS
 62
     7
 10
870.204088
 20
72.098231
 30
0.0
 11
870.204088
 21
64.598231
 31
0.0
  0
LINE
  5
A5
  8
1
  6
CONTINUOUS
 62
     7
 10
869.804088
 20
64.098231
 30
0.0
 11
869.804088
 21
71.598231
 31
0.0
  0
LINE
  5
A6
  8
1
  6
CONTINUOUS
 62
     7
 10
910.604088
 20
66.348231
 30
0.0
 11
911.004088
 21
66.348231
 31
0.0
  0
LINE
  5
A7
  8
1
  6
CONTINUOUS
 62
     7
 10
910.604088
 20
69.848231
 30
0.0
 11
911.004088
 21
69.848231
 31
0.0
  0
LINE
  5
A8
  8
1
  6
CONTINUOUS
 62
     7
 10
890.204088
 20
66.348231
 30
0.0
 11
890.604088
 21
66.348231
 31
0.0
  0
LINE
  5
A9
  8
1
  6
CONTINUOUS
 62
     7
 10
890.204088
 20
69.848231
 30
0.0
 11
890.604088
 21
69.848231
 31
0.0
  0
LINE
  5
AA
  8
1
  6
CONTINUOUS
 62
     7
 10
890.604088
 20
64.598231
 30
0.0
 11
910.604088
 21
64.598231
 31
0.0
  0
LINE
  5
AB
  8
1
  6
CONTINUOUS
 62
     7
 10
890.604088
 20
64.098231
 30
0.0
 11
890.604088
 21
71.598231
 31
0.0
  0
LINE
  5
AC
  8
1
  6
CONTINUOUS
 62
     7
 10
910.604088
 20
71.598231
 30
0.0
 11
890.604088
 21
71.598231
 31
0.0
  0
LINE
  5
AD
  8
1
  6
CONTINUOUS
 62
     7
 10
931.004088
 20
64.598231
 30
0.0
 11
911.004088
 21
64.598231
 31
0.0
  0
LINE
  5
AE
  8
1
  6
CONTINUOUS
 62
     7
 10
910.604088
 20
64.098231
 30
0.0
 11
931.404088
 21
64.098231
 31
0.0
  0
LINE
  5
AF
  8
1
  6
CONTINUOUS
 62
     7
 10
931.004088
 20
71.598231
 30
0.0
 11
911.004088
 21
71.598231
 31
0.0
  0
LINE
  5
B0
  8
1
  6
CONTINUOUS
 62
     7
 10
890.204088
 20
64.598231
 30
0.0
 11
890.204088
 21
72.098231
 31
0.0
  0
LINE
  5
B1
  8
1
  6
CONTINUOUS
 62
     7
 10
890.204088
 20
72.098231
 30
0.0
 11
911.004088
 21
72.098231
 31
0.0
  0
LINE
  5
B2
  8
1
  6
CONTINUOUS
 62
     7
 10
911.004088
 20
72.098231
 30
0.0
 11
911.004088
 21
64.598231
 31
0.0
  0
LINE
  5
B3
  8
1
  6
CONTINUOUS
 62
     7
 10
910.604088
 20
64.098231
 30
0.0
 11
910.604088
 21
71.598231
 31
0.0
  0
LINE
  5
B4
  8
1
  6
CONTINUOUS
 62
     7
 10
951.404088
 20
66.348231
 30
0.0
 11
951.804088
 21
66.348231
 31
0.0
  0
LINE
  5
B5
  8
1
  6
CONTINUOUS
 62
     7
 10
951.404088
 20
69.848231
 30
0.0
 11
951.804088
 21
69.848231
 31
0.0
  0
LINE
  5
B6
  8
1
  6
CONTINUOUS
 62
     7
 10
931.004088
 20
66.348231
 30
0.0
 11
931.404088
 21
66.348231
 31
0.0
  0
LINE
  5
B7
  8
1
  6
CONTINUOUS
 62
     7
 10
931.004088
 20
69.848231
 30
0.0
 11
931.404088
 21
69.848231
 31
0.0
  0
LINE
  5
B8
  8
1
  6
CONTINUOUS
 62
     7
 10
931.404088
 20
64.598231
 30
0.0
 11
951.404088
 21
64.598231
 31
0.0
  0
LINE
  5
B9
  8
1
  6
CONTINUOUS
 62
     7
 10
931.404088
 20
64.098231
 30
0.0
 11
931.404088
 21
71.598231
 31
0.0
  0
LINE
  5
BA
  8
1
  6
CONTINUOUS
 62
     7
 10
951.404088
 20
71.598231
 30
0.0
 11
931.404088
 21
71.598231
 31
0.0
  0
LINE
  5
BB
  8
1
  6
CONTINUOUS
 62
     7
 10
971.804088
 20
64.598231
 30
0.0
 11
951.804088
 21
64.598231
 31
0.0
  0
LINE
  5
BC
  8
1
  6
CONTINUOUS
 62
     7
 10
951.404088
 20
64.098231
 30
0.0
 11
972.204088
 21
64.098231
 31
0.0
  0
LINE
  5
BD
  8
1
  6
CONTINUOUS
 62
     7
 10
971.804088
 20
71.598231
 30
0.0
 11
951.804088
 21
71.598231
 31
0.0
  0
LINE
  5
BE
  8
1
  6
CONTINUOUS
 62
     7
 10
931.004088
 20
64.598231
 30
0.0
 11
931.004088
 21
72.098231
 31
0.0
  0
LINE
  5
BF
  8
1
  6
CONTINUOUS
 62
     7
 10
931.004088
 20
72.098231
 30
0.0
 11
951.804088
 21
72.098231
 31
0.0
  0
LINE
  5
C0
  8
1
  6
CONTINUOUS
 62
     7
 10
951.804088
 20
72.098231
 30
0.0
 11
951.804088
 21
64.598231
 31
0.0
  0
LINE
  5
C1
  8
1
  6
CONTINUOUS
 62
     7
 10
951.404088
 20
64.098231
 30
0.0
 11
951.404088
 21
71.598231
 31
0.0
  0
LINE
  5
C2
  8
1
  6
CONTINUOUS
 62
     7
 10
992.204088
 20
66.348231
 30
0.0
 11
992.604088
 21
66.348231
 31
0.0
  0
LINE
  5
C3
  8
1
  6
CONTINUOUS
 62
     7
 10
992.204088
 20
69.848231
 30
0.0
 11
992.604088
 21
69.848231
 31
0.0
  0
LINE
  5
C4
  8
1
  6
CONTINUOUS
 62
     7
 10
971.804088
 20
66.348231
 30
0.0
 11
972.204088
 21
66.348231
 31
0.0
  0
LINE
  5
C5
  8
1
  6
CONTINUOUS
 62
     7
 10
971.804088
 20
69.848231
 30
0.0
 11
972.204088
 21
69.848231
 31
0.0
  0
LINE
  5
C6
  8
1
  6
CONTINUOUS
 62
     7
 10
972.204088
 20
64.598231
 30
0.0
 11
992.204088
 21
64.598231
 31
0.0
  0
LINE
  5
C7
  8
1
  6
CONTINUOUS
 62
     7
 10
972.204088
 20
64.098231
 30
0.0
 11
972.204088
 21
71.598231
 31
0.0
  0
LINE
  5
C8
  8
1
  6
CONTINUOUS
 62
     7
 10
992.204088
 20
71.598231
 30
0.0
 11
972.204088
 21
71.598231
 31
0.0
  0
LINE
  5
C9
  8
1
  6
CONTINUOUS
 62
     7
 10
1012.604088
 20
64.598231
 30
0.0
 11
992.604088
 21
64.598231
 31
0.0
  0
LINE
  5
CA
  8
1
  6
CONTINUOUS
 62
     7
 10
992.204088
 20
64.098231
 30
0.0
 11
1013.004088
 21
64.098231
 31
0.0
  0
LINE
  5
CB
  8
1
  6
CONTINUOUS
 62
     7
 10
1012.604088
 20
71.598231
 30
0.0
 11
992.604088
 21
71.598231
 31
0.0
  0
LINE
  5
CC
  8
1
  6
CONTINUOUS
 62
     7
 10
971.804088
 20
64.598231
 30
0.0
 11
971.804088
 21
72.098231
 31
0.0
  0
LINE
  5
CD
  8
1
  6
CONTINUOUS
 62
     7
 10
971.804088
 20
72.098231
 30
0.0
 11
992.604088
 21
72.098231
 31
0.0
  0
LINE
  5
CE
  8
1
  6
CONTINUOUS
 62
     7
 10
992.604088
 20
72.098231
 30
0.0
 11
992.604088
 21
64.598231
 31
0.0
  0
LINE
  5
CF
  8
1
  6
CONTINUOUS
 62
     7
 10
992.204088
 20
64.098231
 30
0.0
 11
992.204088
 21
71.598231
 31
0.0
  0
LINE
  5
D0
  8
1
  6
CONTINUOUS
 62
     7
 10
1033.004088
 20
66.348231
 30
0.0
 11
1033.404088
 21
66.348231
 31
0.0
  0
LINE
  5
D1
  8
1
  6
CONTINUOUS
 62
     7
 10
1033.004088
 20
69.848231
 30
0.0
 11
1033.404088
 21
69.848231
 31
0.0
  0
LINE
  5
D2
  8
1
  6
CONTINUOUS
 62
     7
 10
1012.604088
 20
66.348231
 30
0.0
 11
1013.004088
 21
66.348231
 31
0.0
  0
LINE
  5
D3
  8
1
  6
CONTINUOUS
 62
     7
 10
1012.604088
 20
69.848231
 30
0.0
 11
1013.004088
 21
69.848231
 31
0.0
  0
LINE
  5
D4
  8
1
  6
CONTINUOUS
 62
     7
 10
1013.004088
 20
64.598231
 30
0.0
 11
1033.004088
 21
64.598231
 31
0.0
  0
LINE
  5
D5
  8
1
  6
CONTINUOUS
 62
     7
 10
1013.004088
 20
64.098231
 30
0.0
 11
1013.004088
 21
71.598231
 31
0.0
  0
LINE
  5
D6
  8
1
  6
CONTINUOUS
 62
     7
 10
1033.004088
 20
71.598231
 30
0.0
 11
1013.004088
 21
71.598231
 31
0.0
  0
LINE
  5
D7
  8
1
  6
CONTINUOUS
 62
     7
 10
1043.604088
 20
64.598231
 30
0.0
 11
1033.404088
 21
64.598231
 31
0.0
  0
LINE
  5
D8
  8
1
  6
CONTINUOUS
 62
     7
 10
1033.004088
 20
64.098231
 30
0.0
 11
1043.604088
 21
64.098231
 31
0.0
  0
LINE
  5
D9
  8
1
  6
CONTINUOUS
 62
     7
 10
1043.604088
 20
71.598231
 30
0.0
 11
1033.404088
 21
71.598231
 31
0.0
  0
LINE
  5
DA
  8
1
  6
CONTINUOUS
 62
     7
 10
1012.604088
 20
64.598231
 30
0.0
 11
1012.604088
 21
72.098231
 31
0.0
  0
LINE
  5
DB
  8
1
  6
CONTINUOUS
 62
     7
 10
1012.604088
 20
72.098231
 30
0.0
 11
1033.404088
 21
72.098231
 31
0.0
  0
LINE
  5
DC
  8
1
  6
CONTINUOUS
 62
     7
 10
1033.404088
 20
72.098231
 30
0.0
 11
1033.404088
 21
64.598231
 31
0.0
  0
LINE
  5
DD
  8
1
  6
CONTINUOUS
 62
     7
 10
1033.004088
 20
64.098231
 30
0.0
 11
1033.004088
 21
71.598231
 31
0.0
  0
LINE
  5
DE
  8
1
  6
CONTINUOUS
 62
     7
 10
74.204088
 20
71.598231
 30
0.0
 11
54.204088
 21
71.598231
 31
0.0
  0
LINE
  5
DF
  8
1
  6
CONTINUOUS
 62
     7
 10
1043.604088
 20
64.598231
 30
0.0
 11
1043.604088
 21
84.098231
 31
0.0
  0
LINE
  5
E0
  8
1
  6
CONTINUOUS
 62
     7
 10
1043.604088
 20
64.098231
 30
0.0
 11
1043.604088
 21
52.098231
 31
0.0
  0
LINE
  5
E1
  8
1
  6
CONTINUOUS
 62
     7
 10
54.204088
 20
72.098231
 30
0.0
 11
54.204088
 21
64.598231
 31
0.0
  0
LINE
  5
E2
  8
1
  6
CONTINUOUS
 62
     7
 10
43.604088
 20
72.098231
 30
0.0
 11
54.204088
 21
72.098231
 31
0.0
  0
LINE
  5
E3
  8
1
  6
CONTINUOUS
 62
     7
 10
53.804088
 20
64.098231
 30
0.0
 11
53.804088
 21
71.598231
 31
0.0
  0
LINE
  5
E4
  8
1
  6
CONTINUOUS
 62
     7
 10
94.604088
 20
64.098231
 30
0.0
 11
94.604088
 21
71.598231
 31
0.0
  0
LINE
  5
E5
  8
1
  6
CONTINUOUS
 62
     7
 10
95.004088
 20
72.098231
 30
0.0
 11
95.004088
 21
64.598231
 31
0.0
  0
LINE
  5
E6
  8
1
  6
CONTINUOUS
 62
     7
 10
74.204088
 20
72.098231
 30
0.0
 11
95.004088
 21
72.098231
 31
0.0
  0
LINE
  5
E7
  8
1
  6
CONTINUOUS
 62
     7
 10
74.204088
 20
64.598231
 30
0.0
 11
74.204088
 21
72.098231
 31
0.0
  0
LINE
  5
E8
  8
1
  6
CONTINUOUS
 62
     7
 10
115.004088
 20
71.598231
 30
0.0
 11
95.004088
 21
71.598231
 31
0.0
  0
LINE
  5
E9
  8
1
  6
CONTINUOUS
 62
     7
 10
94.604088
 20
64.098231
 30
0.0
 11
115.404088
 21
64.098231
 31
0.0
  0
LINE
  5
EA
  8
1
  6
CONTINUOUS
 62
     7
 10
115.004088
 20
64.598231
 30
0.0
 11
95.004088
 21
64.598231
 31
0.0
  0
LINE
  5
EB
  8
1
  6
CONTINUOUS
 62
     7
 10
94.604088
 20
71.598231
 30
0.0
 11
74.604088
 21
71.598231
 31
0.0
  0
LINE
  5
EC
  8
1
  6
CONTINUOUS
 62
     7
 10
74.604088
 20
64.098231
 30
0.0
 11
74.604088
 21
71.598231
 31
0.0
  0
LINE
  5
ED
  8
1
  6
CONTINUOUS
 62
     7
 10
74.604088
 20
64.598231
 30
0.0
 11
94.604088
 21
64.598231
 31
0.0
  0
LINE
  5
EE
  8
1
  6
CONTINUOUS
 62
     7
 10
74.204088
 20
69.848231
 30
0.0
 11
74.604088
 21
69.848231
 31
0.0
  0
LINE
  5
EF
  8
1
  6
CONTINUOUS
 62
     7
 10
74.204088
 20
66.348231
 30
0.0
 11
74.604088
 21
66.348231
 31
0.0
  0
LINE
  5
F0
  8
1
  6
CONTINUOUS
 62
     7
 10
94.604088
 20
69.848231
 30
0.0
 11
95.004088
 21
69.848231
 31
0.0
  0
LINE
  5
F1
  8
1
  6
CONTINUOUS
 62
     7
 10
94.604088
 20
66.348231
 30
0.0
 11
95.004088
 21
66.348231
 31
0.0
  0
LINE
  5
F2
  8
1
  6
CONTINUOUS
 62
     7
 10
135.404088
 20
64.098231
 30
0.0
 11
135.404088
 21
71.598231
 31
0.0
  0
LINE
  5
F3
  8
1
  6
CONTINUOUS
 62
     7
 10
135.804088
 20
72.098231
 30
0.0
 11
135.804088
 21
64.598231
 31
0.0
  0
LINE
  5
F4
  8
1
  6
CONTINUOUS
 62
     7
 10
115.004088
 20
72.098231
 30
0.0
 11
135.804088
 21
72.098231
 31
0.0
  0
LINE
  5
F5
  8
1
  6
CONTINUOUS
 62
     7
 10
115.004088
 20
64.598231
 30
0.0
 11
115.004088
 21
72.098231
 31
0.0
  0
LINE
  5
F6
  8
1
  6
CONTINUOUS
 62
     7
 10
155.804088
 20
71.598231
 30
0.0
 11
135.804088
 21
71.598231
 31
0.0
  0
LINE
  5
F7
  8
1
  6
CONTINUOUS
 62
     7
 10
135.404088
 20
64.098231
 30
0.0
 11
156.204088
 21
64.098231
 31
0.0
  0
LINE
  5
F8
  8
1
  6
CONTINUOUS
 62
     7
 10
155.804088
 20
64.598231
 30
0.0
 11
135.804088
 21
64.598231
 31
0.0
  0
LINE
  5
F9
  8
1
  6
CONTINUOUS
 62
     7
 10
135.404088
 20
71.598231
 30
0.0
 11
115.404088
 21
71.598231
 31
0.0
  0
LINE
  5
FA
  8
1
  6
CONTINUOUS
 62
     7
 10
115.404088
 20
64.098231
 30
0.0
 11
115.404088
 21
71.598231
 31
0.0
  0
LINE
  5
FB
  8
1
  6
CONTINUOUS
 62
     7
 10
115.404088
 20
64.598231
 30
0.0
 11
135.404088
 21
64.598231
 31
0.0
  0
LINE
  5
FC
  8
1
  6
CONTINUOUS
 62
     7
 10
115.004088
 20
69.848231
 30
0.0
 11
115.404088
 21
69.848231
 31
0.0
  0
LINE
  5
FD
  8
1
  6
CONTINUOUS
 62
     7
 10
115.004088
 20
66.348231
 30
0.0
 11
115.404088
 21
66.348231
 31
0.0
  0
LINE
  5
FE
  8
1
  6
CONTINUOUS
 62
     7
 10
135.404088
 20
69.848231
 30
0.0
 11
135.804088
 21
69.848231
 31
0.0
  0
LINE
  5
FF
  8
1
  6
CONTINUOUS
 62
     7
 10
135.404088
 20
66.348231
 30
0.0
 11
135.804088
 21
66.348231
 31
0.0
  0
LINE
  5
100
  8
1
  6
CONTINUOUS
 62
     7
 10
176.204088
 20
64.098231
 30
0.0
 11
176.204088
 21
71.598231
 31
0.0
  0
LINE
  5
101
  8
1
  6
CONTINUOUS
 62
     7
 10
176.604088
 20
72.098231
 30
0.0
 11
176.604088
 21
64.598231
 31
0.0
  0
LINE
  5
102
  8
1
  6
CONTINUOUS
 62
     7
 10
155.804088
 20
72.098231
 30
0.0
 11
176.604088
 21
72.098231
 31
0.0
  0
LINE
  5
103
  8
1
  6
CONTINUOUS
 62
     7
 10
155.804088
 20
64.598231
 30
0.0
 11
155.804088
 21
72.098231
 31
0.0
  0
LINE
  5
104
  8
1
  6
CONTINUOUS
 62
     7
 10
196.604088
 20
71.598231
 30
0.0
 11
176.604088
 21
71.598231
 31
0.0
  0
LINE
  5
105
  8
1
  6
CONTINUOUS
 62
     7
 10
176.204088
 20
64.098231
 30
0.0
 11
197.004088
 21
64.098231
 31
0.0
  0
LINE
  5
106
  8
1
  6
CONTINUOUS
 62
     7
 10
196.604088
 20
64.598231
 30
0.0
 11
176.604088
 21
64.598231
 31
0.0
  0
LINE
  5
107
  8
1
  6
CONTINUOUS
 62
     7
 10
176.204088
 20
71.598231
 30
0.0
 11
156.204088
 21
71.598231
 31
0.0
  0
LINE
  5
108
  8
1
  6
CONTINUOUS
 62
     7
 10
156.204088
 20
64.098231
 30
0.0
 11
156.204088
 21
71.598231
 31
0.0
  0
LINE
  5
109
  8
1
  6
CONTINUOUS
 62
     7
 10
156.204088
 20
64.598231
 30
0.0
 11
176.204088
 21
64.598231
 31
0.0
  0
LINE
  5
10A
  8
1
  6
CONTINUOUS
 62
     7
 10
155.804088
 20
69.848231
 30
0.0
 11
156.204088
 21
69.848231
 31
0.0
  0
LINE
  5
10B
  8
1
  6
CONTINUOUS
 62
     7
 10
155.804088
 20
66.348231
 30
0.0
 11
156.204088
 21
66.348231
 31
0.0
  0
LINE
  5
10C
  8
1
  6
CONTINUOUS
 62
     7
 10
176.204088
 20
69.848231
 30
0.0
 11
176.604088
 21
69.848231
 31
0.0
  0
LINE
  5
10D
  8
1
  6
CONTINUOUS
 62
     7
 10
176.204088
 20
66.348231
 30
0.0
 11
176.604088
 21
66.348231
 31
0.0
  0
LINE
  5
10E
  8
1
  6
CONTINUOUS
 62
     7
 10
217.004088
 20
64.098231
 30
0.0
 11
217.004088
 21
71.598231
 31
0.0
  0
LINE
  5
10F
  8
1
  6
CONTINUOUS
 62
     7
 10
217.404088
 20
72.098231
 30
0.0
 11
217.404088
 21
64.598231
 31
0.0
  0
LINE
  5
110
  8
1
  6
CONTINUOUS
 62
     7
 10
196.604088
 20
72.098231
 30
0.0
 11
217.404088
 21
72.098231
 31
0.0
  0
LINE
  5
111
  8
1
  6
CONTINUOUS
 62
     7
 10
196.604088
 20
64.598231
 30
0.0
 11
196.604088
 21
72.098231
 31
0.0
  0
LINE
  5
112
  8
1
  6
CONTINUOUS
 62
     7
 10
237.404088
 20
71.598231
 30
0.0
 11
217.404088
 21
71.598231
 31
0.0
  0
LINE
  5
113
  8
1
  6
CONTINUOUS
 62
     7
 10
217.004088
 20
64.098231
 30
0.0
 11
237.804088
 21
64.098231
 31
0.0
  0
LINE
  5
114
  8
1
  6
CONTINUOUS
 62
     7
 10
237.404088
 20
64.598231
 30
0.0
 11
217.404088
 21
64.598231
 31
0.0
  0
LINE
  5
115
  8
1
  6
CONTINUOUS
 62
     7
 10
217.004088
 20
71.598231
 30
0.0
 11
197.004088
 21
71.598231
 31
0.0
  0
LINE
  5
116
  8
1
  6
CONTINUOUS
 62
     7
 10
197.004088
 20
64.098231
 30
0.0
 11
197.004088
 21
71.598231
 31
0.0
  0
LINE
  5
117
  8
1
  6
CONTINUOUS
 62
     7
 10
197.004088
 20
64.598231
 30
0.0
 11
217.004088
 21
64.598231
 31
0.0
  0
LINE
  5
118
  8
1
  6
CONTINUOUS
 62
     7
 10
196.604088
 20
69.848231
 30
0.0
 11
197.004088
 21
69.848231
 31
0.0
  0
LINE
  5
119
  8
1
  6
CONTINUOUS
 62
     7
 10
196.604088
 20
66.348231
 30
0.0
 11
197.004088
 21
66.348231
 31
0.0
  0
LINE
  5
11A
  8
1
  6
CONTINUOUS
 62
     7
 10
217.004088
 20
69.848231
 30
0.0
 11
217.404088
 21
69.848231
 31
0.0
  0
LINE
  5
11B
  8
1
  6
CONTINUOUS
 62
     7
 10
217.004088
 20
66.348231
 30
0.0
 11
217.404088
 21
66.348231
 31
0.0
  0
LINE
  5
11C
  8
1
  6
CONTINUOUS
 62
     7
 10
257.804088
 20
64.098231
 30
0.0
 11
257.804088
 21
71.598231
 31
0.0
  0
LINE
  5
11D
  8
1
  6
CONTINUOUS
 62
     7
 10
258.204088
 20
72.098231
 30
0.0
 11
258.204088
 21
64.598231
 31
0.0
  0
LINE
  5
11E
  8
1
  6
CONTINUOUS
 62
     7
 10
237.404088
 20
72.098231
 30
0.0
 11
258.204088
 21
72.098231
 31
0.0
  0
LINE
  5
11F
  8
1
  6
CONTINUOUS
 62
     7
 10
237.404088
 20
64.598231
 30
0.0
 11
237.404088
 21
72.098231
 31
0.0
  0
LINE
  5
120
  8
1
  6
CONTINUOUS
 62
     7
 10
278.204088
 20
71.598231
 30
0.0
 11
258.204088
 21
71.598231
 31
0.0
  0
LINE
  5
121
  8
1
  6
CONTINUOUS
 62
     7
 10
257.804088
 20
64.098231
 30
0.0
 11
278.604088
 21
64.098231
 31
0.0
  0
LINE
  5
122
  8
1
  6
CONTINUOUS
 62
     7
 10
278.204088
 20
64.598231
 30
0.0
 11
258.204088
 21
64.598231
 31
0.0
  0
LINE
  5
123
  8
1
  6
CONTINUOUS
 62
     7
 10
257.804088
 20
71.598231
 30
0.0
 11
237.804088
 21
71.598231
 31
0.0
  0
LINE
  5
124
  8
1
  6
CONTINUOUS
 62
     7
 10
237.804088
 20
64.098231
 30
0.0
 11
237.804088
 21
71.598231
 31
0.0
  0
LINE
  5
125
  8
1
  6
CONTINUOUS
 62
     7
 10
237.804088
 20
64.598231
 30
0.0
 11
257.804088
 21
64.598231
 31
0.0
  0
LINE
  5
126
  8
1
  6
CONTINUOUS
 62
     7
 10
237.404088
 20
69.848231
 30
0.0
 11
237.804088
 21
69.848231
 31
0.0
  0
LINE
  5
127
  8
1
  6
CONTINUOUS
 62
     7
 10
237.404088
 20
66.348231
 30
0.0
 11
237.804088
 21
66.348231
 31
0.0
  0
LINE
  5
128
  8
1
  6
CONTINUOUS
 62
     7
 10
257.804088
 20
69.848231
 30
0.0
 11
258.204088
 21
69.848231
 31
0.0
  0
LINE
  5
129
  8
1
  6
CONTINUOUS
 62
     7
 10
257.804088
 20
66.348231
 30
0.0
 11
258.204088
 21
66.348231
 31
0.0
  0
LINE
  5
12A
  8
1
  6
CONTINUOUS
 62
     7
 10
298.604088
 20
64.098231
 30
0.0
 11
298.604088
 21
71.598231
 31
0.0
  0
LINE
  5
12B
  8
1
  6
CONTINUOUS
 62
     7
 10
299.004088
 20
72.098231
 30
0.0
 11
299.004088
 21
64.598231
 31
0.0
  0
LINE
  5
12C
  8
1
  6
CONTINUOUS
 62
     7
 10
278.204088
 20
72.098231
 30
0.0
 11
299.004088
 21
72.098231
 31
0.0
  0
LINE
  5
12D
  8
1
  6
CONTINUOUS
 62
     7
 10
278.204088
 20
64.598231
 30
0.0
 11
278.204088
 21
72.098231
 31
0.0
  0
LINE
  5
12E
  8
1
  6
CONTINUOUS
 62
     7
 10
319.004088
 20
71.598231
 30
0.0
 11
299.004088
 21
71.598231
 31
0.0
  0
LINE
  5
12F
  8
1
  6
CONTINUOUS
 62
     7
 10
298.604088
 20
64.098231
 30
0.0
 11
319.404088
 21
64.098231
 31
0.0
  0
LINE
  5
130
  8
1
  6
CONTINUOUS
 62
     7
 10
319.004088
 20
64.598231
 30
0.0
 11
299.004088
 21
64.598231
 31
0.0
  0
LINE
  5
131
  8
1
  6
CONTINUOUS
 62
     7
 10
298.604088
 20
71.598231
 30
0.0
 11
278.604088
 21
71.598231
 31
0.0
  0
LINE
  5
132
  8
1
  6
CONTINUOUS
 62
     7
 10
278.604088
 20
64.098231
 30
0.0
 11
278.604088
 21
71.598231
 31
0.0
  0
LINE
  5
133
  8
1
  6
CONTINUOUS
 62
     7
 10
278.604088
 20
64.598231
 30
0.0
 11
298.604088
 21
64.598231
 31
0.0
  0
LINE
  5
134
  8
1
  6
CONTINUOUS
 62
     7
 10
278.204088
 20
69.848231
 30
0.0
 11
278.604088
 21
69.848231
 31
0.0
  0
LINE
  5
135
  8
1
  6
CONTINUOUS
 62
     7
 10
278.204088
 20
66.348231
 30
0.0
 11
278.604088
 21
66.348231
 31
0.0
  0
LINE
  5
136
  8
1
  6
CONTINUOUS
 62
     7
 10
298.604088
 20
69.848231
 30
0.0
 11
299.004088
 21
69.848231
 31
0.0
  0
LINE
  5
137
  8
1
  6
CONTINUOUS
 62
     7
 10
298.604088
 20
66.348231
 30
0.0
 11
299.004088
 21
66.348231
 31
0.0
  0
LINE
  5
138
  8
1
  6
CONTINUOUS
 62
     7
 10
339.404088
 20
64.098231
 30
0.0
 11
339.404088
 21
71.598231
 31
0.0
  0
LINE
  5
139
  8
1
  6
CONTINUOUS
 62
     7
 10
339.804088
 20
72.098231
 30
0.0
 11
339.804088
 21
64.598231
 31
0.0
  0
LINE
  5
13A
  8
1
  6
CONTINUOUS
 62
     7
 10
319.004088
 20
72.098231
 30
0.0
 11
339.804088
 21
72.098231
 31
0.0
  0
LINE
  5
13B
  8
1
  6
CONTINUOUS
 62
     7
 10
319.004088
 20
64.598231
 30
0.0
 11
319.004088
 21
72.098231
 31
0.0
  0
LINE
  5
13C
  8
1
  6
CONTINUOUS
 62
     7
 10
359.804088
 20
71.598231
 30
0.0
 11
339.804088
 21
71.598231
 31
0.0
  0
LINE
  5
13D
  8
1
  6
CONTINUOUS
 62
     7
 10
339.404088
 20
64.098231
 30
0.0
 11
360.204088
 21
64.098231
 31
0.0
  0
LINE
  5
13E
  8
1
  6
CONTINUOUS
 62
     7
 10
359.804088
 20
64.598231
 30
0.0
 11
339.804088
 21
64.598231
 31
0.0
  0
LINE
  5
13F
  8
1
  6
CONTINUOUS
 62
     7
 10
339.404088
 20
71.598231
 30
0.0
 11
319.404088
 21
71.598231
 31
0.0
  0
LINE
  5
140
  8
1
  6
CONTINUOUS
 62
     7
 10
319.404088
 20
64.098231
 30
0.0
 11
319.404088
 21
71.598231
 31
0.0
  0
LINE
  5
141
  8
1
  6
CONTINUOUS
 62
     7
 10
319.404088
 20
64.598231
 30
0.0
 11
339.404088
 21
64.598231
 31
0.0
  0
LINE
  5
142
  8
1
  6
CONTINUOUS
 62
     7
 10
319.004088
 20
69.848231
 30
0.0
 11
319.404088
 21
69.848231
 31
0.0
  0
LINE
  5
143
  8
1
  6
CONTINUOUS
 62
     7
 10
319.004088
 20
66.348231
 30
0.0
 11
319.404088
 21
66.348231
 31
0.0
  0
LINE
  5
144
  8
1
  6
CONTINUOUS
 62
     7
 10
339.404088
 20
69.848231
 30
0.0
 11
339.804088
 21
69.848231
 31
0.0
  0
LINE
  5
145
  8
1
  6
CONTINUOUS
 62
     7
 10
339.404088
 20
66.348231
 30
0.0
 11
339.804088
 21
66.348231
 31
0.0
  0
LINE
  5
146
  8
1
  6
CONTINUOUS
 62
     7
 10
380.204088
 20
64.098231
 30
0.0
 11
380.204088
 21
71.598231
 31
0.0
  0
LINE
  5
147
  8
1
  6
CONTINUOUS
 62
     7
 10
380.604088
 20
72.098231
 30
0.0
 11
380.604088
 21
64.598231
 31
0.0
  0
LINE
  5
148
  8
1
  6
CONTINUOUS
 62
     7
 10
359.804088
 20
72.098231
 30
0.0
 11
380.604088
 21
72.098231
 31
0.0
  0
LINE
  5
149
  8
1
  6
CONTINUOUS
 62
     7
 10
359.804088
 20
64.598231
 30
0.0
 11
359.804088
 21
72.098231
 31
0.0
  0
LINE
  5
14A
  8
1
  6
CONTINUOUS
 62
     7
 10
400.604088
 20
71.598231
 30
0.0
 11
380.604088
 21
71.598231
 31
0.0
  0
LINE
  5
14B
  8
1
  6
CONTINUOUS
 62
     7
 10
380.204088
 20
64.098231
 30
0.0
 11
401.004088
 21
64.098231
 31
0.0
  0
LINE
  5
14C
  8
1
  6
CONTINUOUS
 62
     7
 10
400.604088
 20
64.598231
 30
0.0
 11
380.604088
 21
64.598231
 31
0.0
  0
LINE
  5
14D
  8
1
  6
CONTINUOUS
 62
     7
 10
380.204088
 20
71.598231
 30
0.0
 11
360.204088
 21
71.598231
 31
0.0
  0
LINE
  5
14E
  8
1
  6
CONTINUOUS
 62
     7
 10
360.204088
 20
64.098231
 30
0.0
 11
360.204088
 21
71.598231
 31
0.0
  0
LINE
  5
14F
  8
1
  6
CONTINUOUS
 62
     7
 10
360.204088
 20
64.598231
 30
0.0
 11
380.204088
 21
64.598231
 31
0.0
  0
LINE
  5
150
  8
1
  6
CONTINUOUS
 62
     7
 10
359.804088
 20
69.848231
 30
0.0
 11
360.204088
 21
69.848231
 31
0.0
  0
LINE
  5
151
  8
1
  6
CONTINUOUS
 62
     7
 10
359.804088
 20
66.348231
 30
0.0
 11
360.204088
 21
66.348231
 31
0.0
  0
LINE
  5
152
  8
1
  6
CONTINUOUS
 62
     7
 10
380.204088
 20
69.848231
 30
0.0
 11
380.604088
 21
69.848231
 31
0.0
  0
LINE
  5
153
  8
1
  6
CONTINUOUS
 62
     7
 10
380.204088
 20
66.348231
 30
0.0
 11
380.604088
 21
66.348231
 31
0.0
  0
LINE
  5
154
  8
1
  6
CONTINUOUS
 62
     7
 10
421.004088
 20
64.098231
 30
0.0
 11
421.004088
 21
71.598231
 31
0.0
  0
LINE
  5
155
  8
1
  6
CONTINUOUS
 62
     7
 10
421.404088
 20
72.098231
 30
0.0
 11
421.404088
 21
64.598231
 31
0.0
  0
LINE
  5
156
  8
1
  6
CONTINUOUS
 62
     7
 10
400.604088
 20
72.098231
 30
0.0
 11
421.404088
 21
72.098231
 31
0.0
  0
LINE
  5
157
  8
1
  6
CONTINUOUS
 62
     7
 10
400.604088
 20
64.598231
 30
0.0
 11
400.604088
 21
72.098231
 31
0.0
  0
LINE
  5
158
  8
1
  6
CONTINUOUS
 62
     7
 10
441.404088
 20
71.598231
 30
0.0
 11
421.404088
 21
71.598231
 31
0.0
  0
LINE
  5
159
  8
1
  6
CONTINUOUS
 62
     7
 10
421.004088
 20
64.098231
 30
0.0
 11
441.804088
 21
64.098231
 31
0.0
  0
LINE
  5
15A
  8
1
  6
CONTINUOUS
 62
     7
 10
441.404088
 20
64.598231
 30
0.0
 11
421.404088
 21
64.598231
 31
0.0
  0
LINE
  5
15B
  8
1
  6
CONTINUOUS
 62
     7
 10
421.004088
 20
71.598231
 30
0.0
 11
401.004088
 21
71.598231
 31
0.0
  0
LINE
  5
15C
  8
1
  6
CONTINUOUS
 62
     7
 10
401.004088
 20
64.098231
 30
0.0
 11
401.004088
 21
71.598231
 31
0.0
  0
LINE
  5
15D
  8
1
  6
CONTINUOUS
 62
     7
 10
401.004088
 20
64.598231
 30
0.0
 11
421.004088
 21
64.598231
 31
0.0
  0
LINE
  5
15E
  8
1
  6
CONTINUOUS
 62
     7
 10
400.604088
 20
69.848231
 30
0.0
 11
401.004088
 21
69.848231
 31
0.0
  0
LINE
  5
15F
  8
1
  6
CONTINUOUS
 62
     7
 10
400.604088
 20
66.348231
 30
0.0
 11
401.004088
 21
66.348231
 31
0.0
  0
LINE
  5
160
  8
1
  6
CONTINUOUS
 62
     7
 10
421.004088
 20
69.848231
 30
0.0
 11
421.404088
 21
69.848231
 31
0.0
  0
LINE
  5
161
  8
1
  6
CONTINUOUS
 62
     7
 10
421.004088
 20
66.348231
 30
0.0
 11
421.404088
 21
66.348231
 31
0.0
  0
LINE
  5
162
  8
1
  6
CONTINUOUS
 62
     7
 10
461.804088
 20
64.098231
 30
0.0
 11
461.804088
 21
71.598231
 31
0.0
  0
LINE
  5
163
  8
1
  6
CONTINUOUS
 62
     7
 10
462.204088
 20
72.098231
 30
0.0
 11
462.204088
 21
64.598231
 31
0.0
  0
LINE
  5
164
  8
1
  6
CONTINUOUS
 62
     7
 10
441.404088
 20
72.098231
 30
0.0
 11
462.204088
 21
72.098231
 31
0.0
  0
LINE
  5
165
  8
1
  6
CONTINUOUS
 62
     7
 10
441.404088
 20
64.598231
 30
0.0
 11
441.404088
 21
72.098231
 31
0.0
  0
LINE
  5
166
  8
1
  6
CONTINUOUS
 62
     7
 10
482.204088
 20
71.598231
 30
0.0
 11
462.204088
 21
71.598231
 31
0.0
  0
LINE
  5
167
  8
1
  6
CONTINUOUS
 62
     7
 10
461.804088
 20
64.098231
 30
0.0
 11
482.604088
 21
64.098231
 31
0.0
  0
LINE
  5
168
  8
1
  6
CONTINUOUS
 62
     7
 10
482.204088
 20
64.598231
 30
0.0
 11
462.204088
 21
64.598231
 31
0.0
  0
LINE
  5
169
  8
1
  6
CONTINUOUS
 62
     7
 10
461.804088
 20
71.598231
 30
0.0
 11
441.804088
 21
71.598231
 31
0.0
  0
LINE
  5
16A
  8
1
  6
CONTINUOUS
 62
     7
 10
441.804088
 20
64.098231
 30
0.0
 11
441.804088
 21
71.598231
 31
0.0
  0
LINE
  5
16B
  8
1
  6
CONTINUOUS
 62
     7
 10
441.804088
 20
64.598231
 30
0.0
 11
461.804088
 21
64.598231
 31
0.0
  0
LINE
  5
16C
  8
1
  6
CONTINUOUS
 62
     7
 10
441.404088
 20
69.848231
 30
0.0
 11
441.804088
 21
69.848231
 31
0.0
  0
LINE
  5
16D
  8
1
  6
CONTINUOUS
 62
     7
 10
441.404088
 20
66.348231
 30
0.0
 11
441.804088
 21
66.348231
 31
0.0
  0
LINE
  5
16E
  8
1
  6
CONTINUOUS
 62
     7
 10
461.804088
 20
69.848231
 30
0.0
 11
462.204088
 21
69.848231
 31
0.0
  0
LINE
  5
16F
  8
1
  6
CONTINUOUS
 62
     7
 10
461.804088
 20
66.348231
 30
0.0
 11
462.204088
 21
66.348231
 31
0.0
  0
LINE
  5
170
  8
1
  6
CONTINUOUS
 62
     7
 10
502.604088
 20
64.098231
 30
0.0
 11
502.604088
 21
71.598231
 31
0.0
  0
LINE
  5
171
  8
1
  6
CONTINUOUS
 62
     7
 10
503.004088
 20
72.098231
 30
0.0
 11
503.004088
 21
64.598231
 31
0.0
  0
LINE
  5
172
  8
1
  6
CONTINUOUS
 62
     7
 10
482.204088
 20
72.098231
 30
0.0
 11
503.004088
 21
72.098231
 31
0.0
  0
LINE
  5
173
  8
1
  6
CONTINUOUS
 62
     7
 10
482.204088
 20
64.598231
 30
0.0
 11
482.204088
 21
72.098231
 31
0.0
  0
LINE
  5
174
  8
1
  6
CONTINUOUS
 62
     7
 10
523.004088
 20
71.598231
 30
0.0
 11
503.004088
 21
71.598231
 31
0.0
  0
LINE
  5
175
  8
1
  6
CONTINUOUS
 62
     7
 10
502.604088
 20
64.098231
 30
0.0
 11
523.404088
 21
64.098231
 31
0.0
  0
LINE
  5
176
  8
1
  6
CONTINUOUS
 62
     7
 10
523.004088
 20
64.598231
 30
0.0
 11
503.004088
 21
64.598231
 31
0.0
  0
LINE
  5
177
  8
1
  6
CONTINUOUS
 62
     7
 10
502.604088
 20
71.598231
 30
0.0
 11
482.604088
 21
71.598231
 31
0.0
  0
LINE
  5
178
  8
1
  6
CONTINUOUS
 62
     7
 10
482.604088
 20
64.098231
 30
0.0
 11
482.604088
 21
71.598231
 31
0.0
  0
LINE
  5
179
  8
1
  6
CONTINUOUS
 62
     7
 10
482.604088
 20
64.598231
 30
0.0
 11
502.604088
 21
64.598231
 31
0.0
  0
LINE
  5
17A
  8
1
  6
CONTINUOUS
 62
     7
 10
482.204088
 20
69.848231
 30
0.0
 11
482.604088
 21
69.848231
 31
0.0
  0
LINE
  5
17B
  8
1
  6
CONTINUOUS
 62
     7
 10
482.204088
 20
66.348231
 30
0.0
 11
482.604088
 21
66.348231
 31
0.0
  0
LINE
  5
17C
  8
1
  6
CONTINUOUS
 62
     7
 10
502.604088
 20
69.848231
 30
0.0
 11
503.004088
 21
69.848231
 31
0.0
  0
LINE
  5
17D
  8
1
  6
CONTINUOUS
 62
     7
 10
502.604088
 20
66.348231
 30
0.0
 11
503.004088
 21
66.348231
 31
0.0
  0
ARC
  5
17E
  8
1
  6
CONTINUOUS
 62
     7
 10
1088.028274
 20
68.098231
 30
0.0
 40
3.5
 50
55.150095
 51
0.0
  0
CIRCLE
  5
17F
  8
1
  6
CONTINUOUS
 62
     7
 10
1088.028274
 20
68.098231
 30
0.0
 40
2.0
  0
LINE
  5
180
  8
1
  6
CONTINUOUS
 62
     7
 10
1090.028274
 20
84.098231
 30
0.0
 11
1091.528274
 21
84.098231
 31
0.0
  0
LINE
  5
181
  8
1
  6
CONTINUOUS
 62
     7
 10
1091.528274
 20
84.098231
 30
0.0
 11
1091.528274
 21
52.098231
 31
0.0
  0
LINE
  5
182
  8
1
  6
CONTINUOUS
 62
     7
 10
1091.528274
 20
52.098231
 30
0.0
 11
1090.028274
 21
52.098231
 31
0.0
  0
LINE
  5
183
  8
1
  6
CONTINUOUS
 62
     7
 10
1090.028274
 20
52.098231
 30
0.0
 11
1090.028274
 21
65.22595
 31
0.0
  0
LINE
  5
184
  8
1
  6
CONTINUOUS
 62
     7
 10
1090.028274
 20
64.098231
 30
0.0
 11
1091.528274
 21
64.098231
 31
0.0
  0
CIRCLE
  5
185
  8
1
  6
CONTINUOUS
 62
     7
 10
1088.028274
 20
68.098231
 30
0.0
 40
1.75
  0
LINE
  5
186
  8
1
  6
CONTINUOUS
 62
     7
 10
1089.020552
 20
69.834717
 30
0.0
 11
1089.764761
 21
71.137082
 31
0.0
  0
LINE
  5
187
  8
1
  6
CONTINUOUS
 62
     7
 10
1090.028274
 20
68.098231
 30
0.0
 11
1090.028274
 21
84.098231
 31
0.0
  0
LINE
  5
188
  8
1
  6
CONTINUOUS
 62
     7
 10
43.604088
 20
72.098231
 30
0.0
 11
43.604088
 21
84.098231
 31
0.0
  0
LINE
  5
189
  8
1
  6
CONTINUOUS
 62
     7
 10
43.604088
 20
64.598231
 30
0.0
 11
53.804088
 21
64.598231
 31
0.0
  0
LINE
  5
18A
  8
1
  6
CONTINUOUS
 62
     7
 10
43.604088
 20
52.098231
 30
0.0
 11
43.604088
 21
71.598231
 31
0.0
  0
LINE
  5
18B
  8
1
  6
CONTINUOUS
 62
     7
 10
53.804088
 20
71.598231
 30
0.0
 11
43.604088
 21
71.598231
 31
0.0
  0
LINE
  5
18C
  8
1
  6
CONTINUOUS
 62
     7
 10
74.204088
 20
64.598231
 30
0.0
 11
54.204088
 21
64.598231
 31
0.0
  0
LINE
  5
18D
  8
1
  6
CENTER
 62
     2
 10
1083.471205
 20
68.098231
 30
0.0
 11
1092.932106
 21
68.098231
 31
0.0
  0
LINE
  5
18E
  8
1
  6
CENTER
 62
     2
 10
1088.028274
 20
63.18003
 30
0.0
 11
1088.028274
 21
73.157038
 31
0.0
  0
LINE
  5
18F
  8
1
  6
CONTINUOUS
 62
     7
 10
53.804088
 20
64.098231
 30
0.0
 11
74.604088
 21
64.098231
 31
0.0
  0
LINE
  5
190
  8
1
  6
CENTER
 62
     2
 10
37.772724
 20
68.098231
 30
0.0
 11
1055.794537
 21
68.098231
 31
0.0
  0
TEXT
  5
191
  8
1
  6
CONTINUOUS
 62
     1
 10
350.0
 20
20.0
 30
0.0
 40
5.0
  1
B-1007-1
 41
1.05
 72
     5
 11
385.0
 21
20.0
 31
0.0
  0
LINE
  5
192
  8
1
  6
CONTINUOUS
 62
     7
 10
53.804088
 20
66.348231
 30
0.0
 11
54.204088
 21
66.348231
 31
0.0
  0
ENDSEC
  0
EOF

